ISO-10303-21;
HEADER;
/* Generated by software containing ST-Developer
 * from STEP Tools, Inc. (www.steptools.com) 
 */
/* OPTION: using custom schema-name function */

FILE_DESCRIPTION(
/* description */ (''),
/* implementation_level */ '2;1');

FILE_NAME(
/* name */ 'EX-LT53.stp',
/* time_stamp */ '2023-04-10T10:37:25+08:00',
/* author */ (''),
/* organization */ (''),
/* preprocessor_version */ 'ST-DEVELOPER v16.7',
/* originating_system */ 'SIEMENS PLM Software NX 12.0',
/* authorisation */ '');

FILE_SCHEMA (('AUTOMOTIVE_DESIGN { 1 0 10303 214 3 1 1 1 }'));
ENDSEC;

DATA;
#10=SHAPE_REPRESENTATION_RELATIONSHIP('None',
'relationship between EX-LT53-None and EX-LT53-None',#22,#11);
#11=ADVANCED_BREP_SHAPE_REPRESENTATION('EX-LT53-None',(#39,#40),#430);
#12=SHAPE_DEFINITION_REPRESENTATION(#13,#22);
#13=PRODUCT_DEFINITION_SHAPE('','',#14);
#14=PRODUCT_DEFINITION(' ','',#16,#15);
#15=PRODUCT_DEFINITION_CONTEXT('part definition',#21,'design');
#16=PRODUCT_DEFINITION_FORMATION_WITH_SPECIFIED_SOURCE(' ',' ',#18,
 .NOT_KNOWN.);
#17=PRODUCT_RELATED_PRODUCT_CATEGORY('part','',(#18));
#18=PRODUCT('EX-LT53','EX-LT53',' ',(#19));
#19=PRODUCT_CONTEXT(' ',#21,'mechanical');
#20=APPLICATION_PROTOCOL_DEFINITION('international standard',
'automotive_design',2010,#21);
#21=APPLICATION_CONTEXT(
'core data for automotive mechanical design processes');
#22=SHAPE_REPRESENTATION('EX-LT53-None',(#265),#430);
#23=PRESENTATION_LAYER_ASSIGNMENT('1','Layer 1',(#39,#40));
#24=STYLED_ITEM('',(#26),#39);
#25=STYLED_ITEM('',(#27),#40);
#26=PRESENTATION_STYLE_ASSIGNMENT((#28));
#27=PRESENTATION_STYLE_ASSIGNMENT((#29));
#28=SURFACE_STYLE_USAGE(.BOTH.,#30);
#29=SURFACE_STYLE_USAGE(.BOTH.,#31);
#30=SURFACE_SIDE_STYLE('',(#32));
#31=SURFACE_SIDE_STYLE('',(#33));
#32=SURFACE_STYLE_FILL_AREA(#34);
#33=SURFACE_STYLE_FILL_AREA(#35);
#34=FILL_AREA_STYLE('',(#36));
#35=FILL_AREA_STYLE('',(#37));
#36=FILL_AREA_STYLE_COLOUR('',#38);
#37=FILL_AREA_STYLE_COLOUR('',#38);
#38=COLOUR_RGB('Orange',1.,0.6,0.);
#39=MANIFOLD_SOLID_BREP('',#41);
#40=MANIFOLD_SOLID_BREP('',#42);
#41=CLOSED_SHELL('',(#85,#86,#87,#88,#89,#90,#91,#92,#93,#94,#95,#96,#97,
#98));
#42=CLOSED_SHELL('',(#99,#100,#101));
#43=PLANE('',#272);
#44=PLANE('',#273);
#45=PLANE('',#274);
#46=PLANE('',#275);
#47=PLANE('',#277);
#48=PLANE('',#280);
#49=PLANE('',#283);
#50=PLANE('',#286);
#51=PLANE('',#289);
#52=PLANE('',#293);
#53=PLANE('',#294);
#54=FACE_OUTER_BOUND('',#135,.T.);
#55=FACE_OUTER_BOUND('',#136,.T.);
#56=FACE_OUTER_BOUND('',#137,.T.);
#57=FACE_OUTER_BOUND('',#138,.T.);
#58=FACE_OUTER_BOUND('',#156,.T.);
#59=FACE_OUTER_BOUND('',#159,.T.);
#60=FACE_OUTER_BOUND('',#160,.T.);
#61=LINE('',#378,#73);
#62=LINE('',#381,#74);
#63=LINE('',#383,#75);
#64=LINE('',#385,#76);
#65=LINE('',#387,#77);
#66=LINE('',#389,#78);
#67=LINE('',#391,#79);
#68=LINE('',#393,#80);
#69=LINE('',#395,#81);
#70=LINE('',#397,#82);
#71=LINE('',#399,#83);
#72=LINE('',#400,#84);
#73=VECTOR('',#309,1.);
#74=VECTOR('',#310,1.);
#75=VECTOR('',#311,1.);
#76=VECTOR('',#312,1.);
#77=VECTOR('',#315,1.);
#78=VECTOR('',#316,1.);
#79=VECTOR('',#317,1.);
#80=VECTOR('',#320,1.);
#81=VECTOR('',#321,1.);
#82=VECTOR('',#322,1.);
#83=VECTOR('',#325,1.);
#84=VECTOR('',#326,1.);
#85=ADVANCED_FACE('',(#108,#109),#102,.F.);
#86=ADVANCED_FACE('',(#110,#111),#103,.F.);
#87=ADVANCED_FACE('',(#54),#43,.F.);
#88=ADVANCED_FACE('',(#55),#44,.F.);
#89=ADVANCED_FACE('',(#56),#45,.F.);
#90=ADVANCED_FACE('',(#57),#46,.F.);
#91=ADVANCED_FACE('',(#112,#113,#114,#115),#47,.T.);
#92=ADVANCED_FACE('',(#116,#117,#118),#48,.F.);
#93=ADVANCED_FACE('',(#119,#120),#104,.F.);
#94=ADVANCED_FACE('',(#121,#122),#49,.T.);
#95=ADVANCED_FACE('',(#123,#124),#105,.F.);
#96=ADVANCED_FACE('',(#125,#126),#50,.T.);
#97=ADVANCED_FACE('',(#127,#128),#106,.F.);
#98=ADVANCED_FACE('',(#58),#51,.F.);
#99=ADVANCED_FACE('',(#129,#130),#107,.T.);
#100=ADVANCED_FACE('',(#59),#52,.F.);
#101=ADVANCED_FACE('',(#60),#53,.T.);
#102=CYLINDRICAL_SURFACE('',#268,2.);
#103=CYLINDRICAL_SURFACE('',#271,2.);
#104=CYLINDRICAL_SURFACE('',#282,1.05);
#105=CYLINDRICAL_SURFACE('',#285,1.05);
#106=CYLINDRICAL_SURFACE('',#288,0.25);
#107=CYLINDRICAL_SURFACE('',#292,0.5);
#108=FACE_BOUND('',#131,.T.);
#109=FACE_BOUND('',#132,.T.);
#110=FACE_BOUND('',#133,.T.);
#111=FACE_BOUND('',#134,.T.);
#112=FACE_BOUND('',#139,.T.);
#113=FACE_BOUND('',#140,.T.);
#114=FACE_BOUND('',#141,.T.);
#115=FACE_BOUND('',#142,.T.);
#116=FACE_BOUND('',#143,.T.);
#117=FACE_BOUND('',#144,.T.);
#118=FACE_BOUND('',#145,.T.);
#119=FACE_BOUND('',#146,.T.);
#120=FACE_BOUND('',#147,.T.);
#121=FACE_BOUND('',#148,.T.);
#122=FACE_BOUND('',#149,.T.);
#123=FACE_BOUND('',#150,.T.);
#124=FACE_BOUND('',#151,.T.);
#125=FACE_BOUND('',#152,.T.);
#126=FACE_BOUND('',#153,.T.);
#127=FACE_BOUND('',#154,.T.);
#128=FACE_BOUND('',#155,.T.);
#129=FACE_BOUND('',#157,.T.);
#130=FACE_BOUND('',#158,.T.);
#131=EDGE_LOOP('',(#161));
#132=EDGE_LOOP('',(#162));
#133=EDGE_LOOP('',(#163));
#134=EDGE_LOOP('',(#164));
#135=EDGE_LOOP('',(#165,#166,#167,#168));
#136=EDGE_LOOP('',(#169,#170,#171,#172));
#137=EDGE_LOOP('',(#173,#174,#175,#176));
#138=EDGE_LOOP('',(#177,#178,#179,#180));
#139=EDGE_LOOP('',(#181));
#140=EDGE_LOOP('',(#182));
#141=EDGE_LOOP('',(#183));
#142=EDGE_LOOP('',(#184,#185,#186,#187));
#143=EDGE_LOOP('',(#188,#189,#190,#191));
#144=EDGE_LOOP('',(#192));
#145=EDGE_LOOP('',(#193));
#146=EDGE_LOOP('',(#194));
#147=EDGE_LOOP('',(#195));
#148=EDGE_LOOP('',(#196));
#149=EDGE_LOOP('',(#197));
#150=EDGE_LOOP('',(#198));
#151=EDGE_LOOP('',(#199));
#152=EDGE_LOOP('',(#200));
#153=EDGE_LOOP('',(#201));
#154=EDGE_LOOP('',(#202));
#155=EDGE_LOOP('',(#203));
#156=EDGE_LOOP('',(#204));
#157=EDGE_LOOP('',(#205));
#158=EDGE_LOOP('',(#206));
#159=EDGE_LOOP('',(#207));
#160=EDGE_LOOP('',(#208));
#161=ORIENTED_EDGE('',*,*,#229,.F.);
#162=ORIENTED_EDGE('',*,*,#230,.F.);
#163=ORIENTED_EDGE('',*,*,#231,.F.);
#164=ORIENTED_EDGE('',*,*,#232,.F.);
#165=ORIENTED_EDGE('',*,*,#233,.T.);
#166=ORIENTED_EDGE('',*,*,#234,.F.);
#167=ORIENTED_EDGE('',*,*,#235,.F.);
#168=ORIENTED_EDGE('',*,*,#236,.T.);
#169=ORIENTED_EDGE('',*,*,#237,.T.);
#170=ORIENTED_EDGE('',*,*,#238,.F.);
#171=ORIENTED_EDGE('',*,*,#239,.F.);
#172=ORIENTED_EDGE('',*,*,#234,.T.);
#173=ORIENTED_EDGE('',*,*,#240,.T.);
#174=ORIENTED_EDGE('',*,*,#241,.F.);
#175=ORIENTED_EDGE('',*,*,#242,.F.);
#176=ORIENTED_EDGE('',*,*,#238,.T.);
#177=ORIENTED_EDGE('',*,*,#243,.T.);
#178=ORIENTED_EDGE('',*,*,#236,.F.);
#179=ORIENTED_EDGE('',*,*,#244,.F.);
#180=ORIENTED_EDGE('',*,*,#241,.T.);
#181=ORIENTED_EDGE('',*,*,#245,.T.);
#182=ORIENTED_EDGE('',*,*,#229,.T.);
#183=ORIENTED_EDGE('',*,*,#231,.T.);
#184=ORIENTED_EDGE('',*,*,#235,.T.);
#185=ORIENTED_EDGE('',*,*,#239,.T.);
#186=ORIENTED_EDGE('',*,*,#242,.T.);
#187=ORIENTED_EDGE('',*,*,#244,.T.);
#188=ORIENTED_EDGE('',*,*,#233,.F.);
#189=ORIENTED_EDGE('',*,*,#243,.F.);
#190=ORIENTED_EDGE('',*,*,#240,.F.);
#191=ORIENTED_EDGE('',*,*,#237,.F.);
#192=ORIENTED_EDGE('',*,*,#246,.T.);
#193=ORIENTED_EDGE('',*,*,#247,.T.);
#194=ORIENTED_EDGE('',*,*,#248,.T.);
#195=ORIENTED_EDGE('',*,*,#246,.F.);
#196=ORIENTED_EDGE('',*,*,#232,.T.);
#197=ORIENTED_EDGE('',*,*,#248,.F.);
#198=ORIENTED_EDGE('',*,*,#249,.T.);
#199=ORIENTED_EDGE('',*,*,#247,.F.);
#200=ORIENTED_EDGE('',*,*,#230,.T.);
#201=ORIENTED_EDGE('',*,*,#249,.F.);
#202=ORIENTED_EDGE('',*,*,#250,.F.);
#203=ORIENTED_EDGE('',*,*,#245,.F.);
#204=ORIENTED_EDGE('',*,*,#250,.T.);
#205=ORIENTED_EDGE('',*,*,#251,.T.);
#206=ORIENTED_EDGE('',*,*,#252,.F.);
#207=ORIENTED_EDGE('',*,*,#251,.F.);
#208=ORIENTED_EDGE('',*,*,#252,.T.);
#209=VERTEX_POINT('',#369);
#210=VERTEX_POINT('',#371);
#211=VERTEX_POINT('',#374);
#212=VERTEX_POINT('',#376);
#213=VERTEX_POINT('',#379);
#214=VERTEX_POINT('',#380);
#215=VERTEX_POINT('',#382);
#216=VERTEX_POINT('',#384);
#217=VERTEX_POINT('',#388);
#218=VERTEX_POINT('',#390);
#219=VERTEX_POINT('',#394);
#220=VERTEX_POINT('',#396);
#221=VERTEX_POINT('',#403);
#222=VERTEX_POINT('',#406);
#223=VERTEX_POINT('',#408);
#224=VERTEX_POINT('',#411);
#225=VERTEX_POINT('',#415);
#226=VERTEX_POINT('',#419);
#227=VERTEX_POINT('',#423);
#228=VERTEX_POINT('',#425);
#229=EDGE_CURVE('',#209,#209,#253,.T.);
#230=EDGE_CURVE('',#210,#210,#254,.T.);
#231=EDGE_CURVE('',#211,#211,#255,.T.);
#232=EDGE_CURVE('',#212,#212,#256,.T.);
#233=EDGE_CURVE('',#213,#214,#61,.T.);
#234=EDGE_CURVE('',#215,#214,#62,.T.);
#235=EDGE_CURVE('',#216,#215,#63,.T.);
#236=EDGE_CURVE('',#216,#213,#64,.T.);
#237=EDGE_CURVE('',#214,#217,#65,.T.);
#238=EDGE_CURVE('',#218,#217,#66,.T.);
#239=EDGE_CURVE('',#215,#218,#67,.T.);
#240=EDGE_CURVE('',#217,#219,#68,.T.);
#241=EDGE_CURVE('',#220,#219,#69,.T.);
#242=EDGE_CURVE('',#218,#220,#70,.T.);
#243=EDGE_CURVE('',#219,#213,#71,.T.);
#244=EDGE_CURVE('',#220,#216,#72,.T.);
#245=EDGE_CURVE('',#221,#221,#257,.T.);
#246=EDGE_CURVE('',#222,#222,#258,.T.);
#247=EDGE_CURVE('',#223,#223,#259,.T.);
#248=EDGE_CURVE('',#224,#224,#260,.T.);
#249=EDGE_CURVE('',#225,#225,#261,.T.);
#250=EDGE_CURVE('',#226,#226,#262,.T.);
#251=EDGE_CURVE('',#227,#227,#263,.T.);
#252=EDGE_CURVE('',#228,#228,#264,.T.);
#253=CIRCLE('',#266,2.);
#254=CIRCLE('',#267,2.);
#255=CIRCLE('',#269,2.);
#256=CIRCLE('',#270,2.);
#257=CIRCLE('',#276,0.25);
#258=CIRCLE('',#278,1.05);
#259=CIRCLE('',#279,1.05);
#260=CIRCLE('',#281,1.05);
#261=CIRCLE('',#284,1.05);
#262=CIRCLE('',#287,0.25);
#263=CIRCLE('',#290,0.5);
#264=CIRCLE('',#291,0.5);
#265=AXIS2_PLACEMENT_3D('',#367,#295,#296);
#266=AXIS2_PLACEMENT_3D('',#368,#297,#298);
#267=AXIS2_PLACEMENT_3D('',#370,#299,#300);
#268=AXIS2_PLACEMENT_3D('',#372,#301,#302);
#269=AXIS2_PLACEMENT_3D('',#373,#303,#304);
#270=AXIS2_PLACEMENT_3D('',#375,#305,#306);
#271=AXIS2_PLACEMENT_3D('',#377,#307,#308);
#272=AXIS2_PLACEMENT_3D('',#386,#313,#314);
#273=AXIS2_PLACEMENT_3D('',#392,#318,#319);
#274=AXIS2_PLACEMENT_3D('',#398,#323,#324);
#275=AXIS2_PLACEMENT_3D('',#401,#327,#328);
#276=AXIS2_PLACEMENT_3D('',#402,#329,#330);
#277=AXIS2_PLACEMENT_3D('',#404,#331,#332);
#278=AXIS2_PLACEMENT_3D('',#405,#333,#334);
#279=AXIS2_PLACEMENT_3D('',#407,#335,#336);
#280=AXIS2_PLACEMENT_3D('',#409,#337,#338);
#281=AXIS2_PLACEMENT_3D('',#410,#339,#340);
#282=AXIS2_PLACEMENT_3D('',#412,#341,#342);
#283=AXIS2_PLACEMENT_3D('',#413,#343,#344);
#284=AXIS2_PLACEMENT_3D('',#414,#345,#346);
#285=AXIS2_PLACEMENT_3D('',#416,#347,#348);
#286=AXIS2_PLACEMENT_3D('',#417,#349,#350);
#287=AXIS2_PLACEMENT_3D('',#418,#351,#352);
#288=AXIS2_PLACEMENT_3D('',#420,#353,#354);
#289=AXIS2_PLACEMENT_3D('',#421,#355,#356);
#290=AXIS2_PLACEMENT_3D('',#422,#357,#358);
#291=AXIS2_PLACEMENT_3D('',#424,#359,#360);
#292=AXIS2_PLACEMENT_3D('',#426,#361,#362);
#293=AXIS2_PLACEMENT_3D('',#427,#363,#364);
#294=AXIS2_PLACEMENT_3D('',#428,#365,#366);
#295=DIRECTION('',(0.,0.,1.));
#296=DIRECTION('',(1.,0.,0.));
#297=DIRECTION('',(-1.,0.,0.));
#298=DIRECTION('',(0.,-1.,-2.16840434497101E-16));
#299=DIRECTION('',(1.,0.,0.));
#300=DIRECTION('',(0.,-1.,2.16840434497101E-16));
#301=DIRECTION('',(-1.,0.,0.));
#302=DIRECTION('',(0.,0.,1.));
#303=DIRECTION('',(-1.,0.,0.));
#304=DIRECTION('',(0.,-1.,0.));
#305=DIRECTION('',(1.,0.,0.));
#306=DIRECTION('',(0.,-1.,0.));
#307=DIRECTION('',(-1.,0.,0.));
#308=DIRECTION('',(0.,0.,1.));
#309=DIRECTION('',(0.,-1.,0.));
#310=DIRECTION('',(-1.,0.,0.));
#311=DIRECTION('',(0.,-1.,0.));
#312=DIRECTION('',(-1.,0.,0.));
#313=DIRECTION('',(0.,0.,-1.));
#314=DIRECTION('',(-1.,0.,0.));
#315=DIRECTION('',(0.,0.,-1.));
#316=DIRECTION('',(-1.,0.,0.));
#317=DIRECTION('',(0.,0.,-1.));
#318=DIRECTION('',(0.,1.,0.));
#319=DIRECTION('',(0.,0.,1.));
#320=DIRECTION('',(0.,1.,0.));
#321=DIRECTION('',(-1.,0.,0.));
#322=DIRECTION('',(0.,1.,0.));
#323=DIRECTION('',(0.,0.,1.));
#324=DIRECTION('',(1.,0.,0.));
#325=DIRECTION('',(0.,0.,1.));
#326=DIRECTION('',(0.,0.,1.));
#327=DIRECTION('',(0.,-1.,0.));
#328=DIRECTION('',(0.,0.,-1.));
#329=DIRECTION('',(-1.,0.,0.));
#330=DIRECTION('',(0.,-1.,0.));
#331=DIRECTION('',(1.,0.,0.));
#332=DIRECTION('',(0.,0.,-1.));
#333=DIRECTION('',(1.,0.,0.));
#334=DIRECTION('',(0.,-1.,0.));
#335=DIRECTION('',(1.,0.,0.));
#336=DIRECTION('',(0.,-1.,0.));
#337=DIRECTION('',(1.,0.,0.));
#338=DIRECTION('',(0.,0.,-1.));
#339=DIRECTION('',(1.,0.,0.));
#340=DIRECTION('',(0.,-1.,0.));
#341=DIRECTION('',(-1.,0.,0.));
#342=DIRECTION('',(0.,0.,1.));
#343=DIRECTION('',(1.,0.,0.));
#344=DIRECTION('',(0.,0.,-1.));
#345=DIRECTION('',(1.,0.,0.));
#346=DIRECTION('',(0.,-1.,0.));
#347=DIRECTION('',(-1.,0.,0.));
#348=DIRECTION('',(0.,0.,1.));
#349=DIRECTION('',(1.,0.,0.));
#350=DIRECTION('',(0.,0.,-1.));
#351=DIRECTION('',(1.,0.,0.));
#352=DIRECTION('',(0.,-1.,0.));
#353=DIRECTION('',(1.,0.,0.));
#354=DIRECTION('',(0.,0.,-1.));
#355=DIRECTION('',(-1.,0.,0.));
#356=DIRECTION('',(0.,0.,1.));
#357=DIRECTION('',(0.,1.,0.));
#358=DIRECTION('',(-1.,0.,0.));
#359=DIRECTION('',(0.,1.,0.));
#360=DIRECTION('',(-1.,0.,0.));
#361=DIRECTION('',(0.,1.,0.));
#362=DIRECTION('',(0.,0.,1.));
#363=DIRECTION('',(0.,1.,0.));
#364=DIRECTION('',(0.,0.,1.));
#365=DIRECTION('',(0.,1.,0.));
#366=DIRECTION('',(0.,0.,1.));
#367=CARTESIAN_POINT('',(0.,0.,0.));
#368=CARTESIAN_POINT('',(2.,2.5,2.5));
#369=CARTESIAN_POINT('',(2.,0.5,2.5));
#370=CARTESIAN_POINT('',(1.7,2.5,2.5));
#371=CARTESIAN_POINT('',(1.7,0.5,2.5));
#372=CARTESIAN_POINT('',(2.,2.5,2.5));
#373=CARTESIAN_POINT('',(2.,2.5,10.5));
#374=CARTESIAN_POINT('',(2.,0.5,10.5));
#375=CARTESIAN_POINT('',(1.7,2.5,10.5));
#376=CARTESIAN_POINT('',(1.7,0.5,10.5));
#377=CARTESIAN_POINT('',(2.,2.5,10.5));
#378=CARTESIAN_POINT('',(0.,7.,13.));
#379=CARTESIAN_POINT('',(0.,7.,13.));
#380=CARTESIAN_POINT('',(0.,0.,13.));
#381=CARTESIAN_POINT('',(2.,0.,13.));
#382=CARTESIAN_POINT('',(2.,0.,13.));
#383=CARTESIAN_POINT('',(2.,7.,13.));
#384=CARTESIAN_POINT('',(2.,7.,13.));
#385=CARTESIAN_POINT('',(2.,7.,13.));
#386=CARTESIAN_POINT('',(2.,7.,13.));
#387=CARTESIAN_POINT('',(0.,0.,13.));
#388=CARTESIAN_POINT('',(0.,0.,0.));
#389=CARTESIAN_POINT('',(2.,0.,0.));
#390=CARTESIAN_POINT('',(2.,0.,0.));
#391=CARTESIAN_POINT('',(2.,0.,13.));
#392=CARTESIAN_POINT('',(2.,0.,13.));
#393=CARTESIAN_POINT('',(0.,0.,0.));
#394=CARTESIAN_POINT('',(0.,7.,0.));
#395=CARTESIAN_POINT('',(2.,7.,0.));
#396=CARTESIAN_POINT('',(2.,7.,0.));
#397=CARTESIAN_POINT('',(2.,0.,0.));
#398=CARTESIAN_POINT('',(2.,0.,0.));
#399=CARTESIAN_POINT('',(0.,7.,0.));
#400=CARTESIAN_POINT('',(2.,7.,0.));
#401=CARTESIAN_POINT('',(2.,7.,0.));
#402=CARTESIAN_POINT('',(2.,5.5,6.5));
#403=CARTESIAN_POINT('',(2.,5.25,6.5));
#404=CARTESIAN_POINT('',(2.,0.,0.));
#405=CARTESIAN_POINT('',(0.,2.5,10.5));
#406=CARTESIAN_POINT('',(0.,1.45,10.5));
#407=CARTESIAN_POINT('',(0.,2.5,2.5));
#408=CARTESIAN_POINT('',(0.,1.45,2.5));
#409=CARTESIAN_POINT('',(0.,0.,0.));
#410=CARTESIAN_POINT('',(1.7,2.5,10.5));
#411=CARTESIAN_POINT('',(1.7,1.45,10.5));
#412=CARTESIAN_POINT('',(1.7,2.5,10.5));
#413=CARTESIAN_POINT('',(1.7,2.5,10.5));
#414=CARTESIAN_POINT('',(1.7,2.5,2.5));
#415=CARTESIAN_POINT('',(1.7,1.45,2.5));
#416=CARTESIAN_POINT('',(1.7,2.5,2.5));
#417=CARTESIAN_POINT('',(1.7,2.5,2.5));
#418=CARTESIAN_POINT('',(1.95,5.5,6.5));
#419=CARTESIAN_POINT('',(1.95,5.25,6.5));
#420=CARTESIAN_POINT('',(1.95,5.5,6.5));
#421=CARTESIAN_POINT('',(1.95,5.5,6.5));
#422=CARTESIAN_POINT('',(1.,-20.,6.5));
#423=CARTESIAN_POINT('',(0.5,-20.,6.5));
#424=CARTESIAN_POINT('',(1.,0.,6.5));
#425=CARTESIAN_POINT('',(0.5,0.,6.5));
#426=CARTESIAN_POINT('',(1.,-20.,6.5));
#427=CARTESIAN_POINT('',(1.,-20.,6.5));
#428=CARTESIAN_POINT('',(1.,0.,6.5));
#429=MECHANICAL_DESIGN_GEOMETRIC_PRESENTATION_REPRESENTATION('',(#24,#25),
#430);
#430=(
GEOMETRIC_REPRESENTATION_CONTEXT(3)
GLOBAL_UNCERTAINTY_ASSIGNED_CONTEXT((#431))
GLOBAL_UNIT_ASSIGNED_CONTEXT((#437,#433,#432))
REPRESENTATION_CONTEXT('EX-LT53','TOP_LEVEL_ASSEMBLY_PART')
);
#431=UNCERTAINTY_MEASURE_WITH_UNIT(LENGTH_MEASURE(2.E-5),#437,
'DISTANCE_ACCURACY_VALUE','Maximum Tolerance applied to model');
#432=(
NAMED_UNIT(*)
SI_UNIT($,.STERADIAN.)
SOLID_ANGLE_UNIT()
);
#433=(
CONVERSION_BASED_UNIT('DEGREE',#435)
NAMED_UNIT(#434)
PLANE_ANGLE_UNIT()
);
#434=DIMENSIONAL_EXPONENTS(0.,0.,0.,0.,0.,0.,0.);
#435=PLANE_ANGLE_MEASURE_WITH_UNIT(PLANE_ANGLE_MEASURE(0.0174532925),#436);
#436=(
NAMED_UNIT(*)
PLANE_ANGLE_UNIT()
SI_UNIT($,.RADIAN.)
);
#437=(
LENGTH_UNIT()
NAMED_UNIT(*)
SI_UNIT(.MILLI.,.METRE.)
);
ENDSEC;
END-ISO-10303-21;
